ISO-10303-21;
HEADER;
FILE_DESCRIPTION (( 'STEP AP203' ),
    '1' );
FILE_NAME ('A.SSL001.step',
    '2023-11-15T15:20:58',
    ( '' ),
    ( '' ),
    'SwSTEP 2.0',
    'SolidWorks 2022',
    '' );
FILE_SCHEMA (( 'CONFIG_CONTROL_DESIGN' ));
ENDSEC;

DATA;
#1 = AXIS2_PLACEMENT_3D ( 'NONE', #143, #52, #68 ) ;
#2 = CYLINDRICAL_SURFACE ( 'NONE', #138, 1.500000000000000222 ) ;
#3 = APPROVAL ( #151, 'UNSPECIFIED' ) ;
#4 = DATE_AND_TIME ( #167, #113 ) ;
#5 =( NAMED_UNIT ( * ) SI_UNIT ( $, .STERADIAN. ) SOLID_ANGLE_UNIT ( ) );
#6 = SHAPE_DEFINITION_REPRESENTATION ( #43, #22 ) ;
#7 = APPROVAL_ROLE ( '' ) ;
#8 =( LENGTH_UNIT ( ) NAMED_UNIT ( * ) SI_UNIT ( .MILLI., .METRE. ) );
#9 = PERSON_AND_ORGANIZATION ( #132, #25 ) ;
#10 = DATE_AND_TIME ( #168, #49 ) ;
#11 =( GEOMETRIC_REPRESENTATION_CONTEXT ( 3 ) GLOBAL_UNCERTAINTY_ASSIGNED_CONTEXT ( ( #54 ) ) GLOBAL_UNIT_ASSIGNED_CONTEXT ( ( #8, #122, #5 ) ) REPRESENTATION_CONTEXT ( 'NONE', 'WORKASPACE' ) );
#12 = PRODUCT_RELATED_PRODUCT_CATEGORY ( 'detail', '', ( #28 ) ) ;
#13 = ORIENTED_EDGE ( 'NONE', *, *, #56, .T. ) ;
#14 = EDGE_LOOP ( 'NONE', ( #75 ) ) ;
#15 = DIRECTION ( 'NONE',  ( 0.000000000000000000, 0.000000000000000000, 1.000000000000000000 ) ) ;
#16 = LOCAL_TIME ( 16, 20, 58.00000000000000000, #111 ) ;
#17 = PERSON_AND_ORGANIZATION ( #132, #25 ) ;
#18 = VERTEX_POINT ( 'NONE', #33 ) ;
#19 = EDGE_CURVE ( 'NONE', #95, #95, #147, .T. ) ;
#20 = DATE_AND_TIME ( #136, #53 ) ;
#21 = AXIS2_PLACEMENT_3D ( 'NONE', #51, #102, #159 ) ;
#22 = ADVANCED_BREP_SHAPE_REPRESENTATION ( 'A.SSL001', ( #83, #87 ), #11 ) ;
#23 = APPLICATION_CONTEXT ( 'configuration controlled 3d designs of mechanical parts and assemblies' ) ;
#24 = CC_DESIGN_PERSON_AND_ORGANIZATION_ASSIGNMENT ( #57, #92, ( #28 ) ) ;
#25 = ORGANIZATION ( 'UNSPECIFIED', 'UNSPECIFIED', '' ) ;
#26 = EDGE_LOOP ( 'NONE', ( #119 ) ) ;
#27 = DIRECTION ( 'NONE',  ( 1.000000000000000000, 0.000000000000000000, 0.000000000000000000 ) ) ;
#28 = PRODUCT ( 'A.SSL001', 'A.SSL001', '', ( #145 ) ) ;
#29 = FACE_OUTER_BOUND ( 'NONE', #141, .T. ) ;
#30 = CARTESIAN_POINT ( 'NONE',  ( 0.000000000000000000, 11.50000000000000711, 1.500000000000000222 ) ) ;
#31 = PERSON_AND_ORGANIZATION_ROLE ( 'creator' ) ;
#32 = APPROVAL ( #71, 'UNSPECIFIED' ) ;
#33 = CARTESIAN_POINT ( 'NONE',  ( 7.000000000000000000, 18.50000000000000711, 1.500000000000000222 ) ) ;
#34 = AXIS2_PLACEMENT_3D ( 'NONE', #86, #170, #72 ) ;
#35 = PERSON_AND_ORGANIZATION_ROLE ( 'creator' ) ;
#36 = CC_DESIGN_DATE_AND_TIME_ASSIGNMENT ( #10, #47, ( #100 ) ) ;
#37 = PLANE ( 'NONE',  #34 ) ;
#38 = CC_DESIGN_APPROVAL ( #88, ( #140 ) ) ;
#39 = EDGE_LOOP ( 'NONE', ( #157 ) ) ;
#40 = APPLICATION_PROTOCOL_DEFINITION ( 'international standard', 'config_control_design', 1994, #144 ) ;
#41 = ADVANCED_FACE ( 'NONE', ( #66, #118 ), #173, .T. ) ;
#42 = FACE_OUTER_BOUND ( 'NONE', #26, .T. ) ;
#43 = PRODUCT_DEFINITION_SHAPE ( 'NONE', 'NONE',  #100 ) ;
#44 = CARTESIAN_POINT ( 'NONE',  ( 0.000000000000000000, 0.000000000000000000, 1.500000000000000222 ) ) ;
#45 = DATE_AND_TIME ( #165, #67 ) ;
#46 = CALENDAR_DATE ( 2023, 15, 11 ) ;
#47 = DATE_TIME_ROLE ( 'creation_date' ) ;
#48 = PERSON_AND_ORGANIZATION_ROLE ( 'design_supplier' ) ;
#49 = LOCAL_TIME ( 16, 20, 58.00000000000000000, #80 ) ;
#50 = ORIENTED_EDGE ( 'NONE', *, *, #19, .T. ) ;
#51 = CARTESIAN_POINT ( 'NONE',  ( 7.000000000000000000, 18.50000000000000355, 0.000000000000000000 ) ) ;
#52 = DIRECTION ( 'NONE',  ( 1.000000000000000000, 0.000000000000000000, -0.000000000000000000 ) ) ;
#53 = LOCAL_TIME ( 16, 20, 58.00000000000000000, #163 ) ;
#54 = UNCERTAINTY_MEASURE_WITH_UNIT (LENGTH_MEASURE( 1.000000000000000082E-05 ), #8, 'distance_accuracy_value', 'NONE');
#55 = DIRECTION ( 'NONE',  ( 0.000000000000000000, 0.000000000000000000, 1.000000000000000000 ) ) ;
#56 = EDGE_CURVE ( 'NONE', #18, #18, #93, .T. ) ;
#57 = PERSON_AND_ORGANIZATION ( #132, #25 ) ;
#58 = CC_DESIGN_PERSON_AND_ORGANIZATION_ASSIGNMENT ( #114, #62, ( #74 ) ) ;
#59 = CARTESIAN_POINT ( 'NONE',  ( 0.000000000000000000, 0.000000000000000000, 0.000000000000000000 ) ) ;
#60 = PERSON_AND_ORGANIZATION ( #132, #25 ) ;
#61 = AXIS2_PLACEMENT_3D ( 'NONE', #110, #70, #148 ) ;
#62 = PERSON_AND_ORGANIZATION_ROLE ( 'classification_officer' ) ;
#63 = PERSON_AND_ORGANIZATION ( #132, #25 ) ;
#64 = PERSON_AND_ORGANIZATION ( #132, #25 ) ;
#65 = CC_DESIGN_DATE_AND_TIME_ASSIGNMENT ( #20, #73, ( #74 ) ) ;
#66 = FACE_OUTER_BOUND ( 'NONE', #14, .T. ) ;
#67 = LOCAL_TIME ( 16, 20, 58.00000000000000000, #108 ) ;
#68 = DIRECTION ( 'NONE',  ( 0.000000000000000000, 0.000000000000000000, 1.000000000000000000 ) ) ;
#69 = APPROVAL_PERSON_ORGANIZATION ( #63, #88, #97 ) ;
#70 = DIRECTION ( 'NONE',  ( -0.000000000000000000, -0.000000000000000000, -1.000000000000000000 ) ) ;
#71 = APPROVAL_STATUS ( 'not_yet_approved' ) ;
#72 = DIRECTION ( 'NONE',  ( 0.000000000000000000, -0.000000000000000000, 1.000000000000000000 ) ) ;
#73 = DATE_TIME_ROLE ( 'classification_date' ) ;
#74 = SECURITY_CLASSIFICATION ( '', '', #84 ) ;
#75 = ORIENTED_EDGE ( 'NONE', *, *, #171, .F. ) ;
#76 = CARTESIAN_POINT ( 'NONE',  ( 0.000000000000000000, 11.50000000000000711, 0.000000000000000000 ) ) ;
#77 = VERTEX_POINT ( 'NONE', #131 ) ;
#78 = AXIS2_PLACEMENT_3D ( 'NONE', #76, #139, #90 ) ;
#79 = DIRECTION ( 'NONE',  ( 1.000000000000000000, 0.000000000000000000, 0.000000000000000000 ) ) ;
#80 = COORDINATED_UNIVERSAL_TIME_OFFSET ( 1, 0, .AHEAD. ) ;
#81 = DIRECTION ( 'NONE',  ( 0.000000000000000000, 0.000000000000000000, 1.000000000000000000 ) ) ;
#82 = CIRCLE ( 'NONE', #117, 1.500000000000000222 ) ;
#83 = MANIFOLD_SOLID_BREP ( 'Austragung1', #101 ) ;
#84 = SECURITY_CLASSIFICATION_LEVEL ( 'unclassified' ) ;
#85 = ADVANCED_FACE ( 'NONE', ( #175 ), #160, .T. ) ;
#86 = CARTESIAN_POINT ( 'NONE',  ( 0.000000000000000000, 0.000000000000000000, 0.000000000000000000 ) ) ;
#87 = AXIS2_PLACEMENT_3D ( 'NONE', #59, #55, #27 ) ;
#88 = APPROVAL ( #112, 'UNSPECIFIED' ) ;
#89 = EDGE_LOOP ( 'NONE', ( #129 ) ) ;
#90 = DIRECTION ( 'NONE',  ( 0.000000000000000000, 0.000000000000000000, 1.000000000000000000 ) ) ;
#91 = FACE_OUTER_BOUND ( 'NONE', #142, .T. ) ;
#92 = PERSON_AND_ORGANIZATION_ROLE ( 'design_owner' ) ;
#93 = CIRCLE ( 'NONE', #109, 1.500000000000000222 ) ;
#94 = APPROVAL_DATE_TIME ( #45, #32 ) ;
#95 = VERTEX_POINT ( 'NONE', #30 ) ;
#96 = CC_DESIGN_SECURITY_CLASSIFICATION ( #74, ( #140 ) ) ;
#97 = APPROVAL_ROLE ( '' ) ;
#98 = ADVANCED_FACE ( 'NONE', ( #99 ), #37, .F. ) ;
#99 = FACE_OUTER_BOUND ( 'NONE', #39, .T. ) ;
#100 = PRODUCT_DEFINITION ( 'UNKNOWN', '', #140, #116 ) ;
#101 = CLOSED_SHELL ( 'NONE', ( #41, #121, #130, #85, #98 ) ) ;
#102 = DIRECTION ( 'NONE',  ( 1.000000000000000000, 0.000000000000000000, 0.000000000000000000 ) ) ;
#103 = DIRECTION ( 'NONE',  ( 1.000000000000000000, 0.000000000000000000, 0.000000000000000000 ) ) ;
#104 = APPROVAL_PERSON_ORGANIZATION ( #17, #32, #7 ) ;
#105 = DIRECTION ( 'NONE',  ( 0.000000000000000000, 1.000000000000000000, 0.000000000000000000 ) ) ;
#106 = CARTESIAN_POINT ( 'NONE',  ( 0.000000000000000000, 0.000000000000000000, 0.000000000000000000 ) ) ;
#107 = APPROVAL_ROLE ( '' ) ;
#108 = COORDINATED_UNIVERSAL_TIME_OFFSET ( 1, 0, .AHEAD. ) ;
#109 = AXIS2_PLACEMENT_3D ( 'NONE', #128, #103, #15 ) ;
#110 = CARTESIAN_POINT ( 'NONE',  ( 7.000000000000000000, 11.50000000000001066, 0.000000000000000000 ) ) ;
#111 = COORDINATED_UNIVERSAL_TIME_OFFSET ( 1, 0, .AHEAD. ) ;
#112 = APPROVAL_STATUS ( 'not_yet_approved' ) ;
#113 = LOCAL_TIME ( 16, 20, 58.00000000000000000, #134 ) ;
#114 = PERSON_AND_ORGANIZATION ( #132, #25 ) ;
#115 = CC_DESIGN_APPROVAL ( #3, ( #74 ) ) ;
#116 = DESIGN_CONTEXT ( 'detailed design', #23, 'design' ) ;
#117 = AXIS2_PLACEMENT_3D ( 'NONE', #166, #105, #162 ) ;
#118 = FACE_OUTER_BOUND ( 'NONE', #172, .T. ) ;
#119 = ORIENTED_EDGE ( 'NONE', *, *, #19, .F. ) ;
#120 = FACE_OUTER_BOUND ( 'NONE', #126, .T. ) ;
#121 = ADVANCED_FACE ( 'NONE', ( #91, #29 ), #127, .T. ) ;
#122 =( NAMED_UNIT ( * ) PLANE_ANGLE_UNIT ( ) SI_UNIT ( $, .RADIAN. ) );
#123 = CC_DESIGN_PERSON_AND_ORGANIZATION_ASSIGNMENT ( #9, #48, ( #140 ) ) ;
#124 = VERTEX_POINT ( 'NONE', #44 ) ;
#125 = CIRCLE ( 'NONE', #155, 1.500000000000000222 ) ;
#126 = EDGE_LOOP ( 'NONE', ( #156 ) ) ;
#127 = TOROIDAL_SURFACE ( 'NONE', #61, 6.999999999999995559, 1.500000000000000222 ) ;
#128 = CARTESIAN_POINT ( 'NONE',  ( 7.000000000000000000, 18.50000000000000711, 0.000000000000000000 ) ) ;
#129 = ORIENTED_EDGE ( 'NONE', *, *, #171, .T. ) ;
#130 = ADVANCED_FACE ( 'NONE', ( #42, #120 ), #2, .T. ) ;
#131 = CARTESIAN_POINT ( 'NONE',  ( 52.50000000000000000, 18.50000000000000355, 1.500000000000000222 ) ) ;
#132 = PERSON ( 'UNSPECIFIED', 'UNSPECIFIED', 'UNSPECIFIED', ('UNSPECIFIED'), ('UNSPECIFIED'), ('UNSPECIFIED') ) ;
#133 = APPROVAL_DATE_TIME ( #153, #88 ) ;
#134 = COORDINATED_UNIVERSAL_TIME_OFFSET ( 1, 0, .AHEAD. ) ;
#135 = CARTESIAN_POINT ( 'NONE',  ( 52.50000000000000000, 18.50000000000000355, 0.000000000000000000 ) ) ;
#136 = CALENDAR_DATE ( 2023, 15, 11 ) ;
#137 = APPROVAL_PERSON_ORGANIZATION ( #64, #3, #107 ) ;
#138 = AXIS2_PLACEMENT_3D ( 'NONE', #106, #152, #81 ) ;
#139 = DIRECTION ( 'NONE',  ( 0.000000000000000000, 1.000000000000000000, 0.000000000000000000 ) ) ;
#140 = PRODUCT_DEFINITION_FORMATION_WITH_SPECIFIED_SOURCE ( 'ANY', '', #28, .NOT_KNOWN. ) ;
#141 = EDGE_LOOP ( 'NONE', ( #50 ) ) ;
#142 = EDGE_LOOP ( 'NONE', ( #158 ) ) ;
#143 = CARTESIAN_POINT ( 'NONE',  ( 52.50000000000000000, 18.50000000000000355, 0.000000000000000000 ) ) ;
#144 = APPLICATION_CONTEXT ( 'configuration controlled 3d designs of mechanical parts and assemblies' ) ;
#145 = MECHANICAL_CONTEXT ( 'NONE', #144, 'mechanical' ) ;
#146 = DIRECTION ( 'NONE',  ( 0.000000000000000000, 0.000000000000000000, 1.000000000000000000 ) ) ;
#147 = CIRCLE ( 'NONE', #78, 1.500000000000000222 ) ;
#148 = DIRECTION ( 'NONE',  ( -1.000000000000000000, 0.000000000000000000, 0.000000000000000000 ) ) ;
#149 = APPROVAL_DATE_TIME ( #4, #3 ) ;
#150 = PERSON_AND_ORGANIZATION ( #132, #25 ) ;
#151 = APPROVAL_STATUS ( 'not_yet_approved' ) ;
#152 = DIRECTION ( 'NONE',  ( 0.000000000000000000, 1.000000000000000000, 0.000000000000000000 ) ) ;
#153 = DATE_AND_TIME ( #46, #16 ) ;
#154 = EDGE_CURVE ( 'NONE', #124, #124, #82, .T. ) ;
#155 = AXIS2_PLACEMENT_3D ( 'NONE', #135, #79, #146 ) ;
#156 = ORIENTED_EDGE ( 'NONE', *, *, #154, .T. ) ;
#157 = ORIENTED_EDGE ( 'NONE', *, *, #154, .F. ) ;
#158 = ORIENTED_EDGE ( 'NONE', *, *, #56, .F. ) ;
#159 = DIRECTION ( 'NONE',  ( 0.000000000000000000, 0.000000000000000000, -1.000000000000000000 ) ) ;
#160 = PLANE ( 'NONE',  #1 ) ;
#161 = APPLICATION_PROTOCOL_DEFINITION ( 'international standard', 'config_control_design', 1994, #23 ) ;
#162 = DIRECTION ( 'NONE',  ( 0.000000000000000000, 0.000000000000000000, 1.000000000000000000 ) ) ;
#163 = COORDINATED_UNIVERSAL_TIME_OFFSET ( 1, 0, .AHEAD. ) ;
#164 = CC_DESIGN_APPROVAL ( #32, ( #100 ) ) ;
#165 = CALENDAR_DATE ( 2023, 15, 11 ) ;
#166 = CARTESIAN_POINT ( 'NONE',  ( 0.000000000000000000, 0.000000000000000000, 0.000000000000000000 ) ) ;
#167 = CALENDAR_DATE ( 2023, 15, 11 ) ;
#168 = CALENDAR_DATE ( 2023, 15, 11 ) ;
#169 = CC_DESIGN_PERSON_AND_ORGANIZATION_ASSIGNMENT ( #60, #35, ( #140 ) ) ;
#170 = DIRECTION ( 'NONE',  ( 0.000000000000000000, 1.000000000000000000, 0.000000000000000000 ) ) ;
#171 = EDGE_CURVE ( 'NONE', #77, #77, #125, .T. ) ;
#172 = EDGE_LOOP ( 'NONE', ( #13 ) ) ;
#173 = CYLINDRICAL_SURFACE ( 'NONE', #21, 1.500000000000000222 ) ;
#174 = CC_DESIGN_PERSON_AND_ORGANIZATION_ASSIGNMENT ( #150, #31, ( #100 ) ) ;
#175 = FACE_OUTER_BOUND ( 'NONE', #89, .T. ) ;
ENDSEC;
END-ISO-10303-21;
